Merry Christmas Mr. Lawrence

(/) Slide Up  (\) Slide Down  (h) Hammer On  (p) Pull Off  (b) Bend (r) Release (v) Vibrato

Stave 1:

E|-----------------
B|-----------------
G|------------12v--
D|--------12-------
A|-----8-----------
E|--0--------------

Stave 2:

E|--10------10--15--10------10------10--15--10------
B|------13--------------13------13--------------13--
G|--------------------------------------------------
D|--------------------------------------------------
A|--------------------------------------------------
E|--------------------------------------------------

Stave 3:

E|--10------10--13--10------10------10--13--10------
B|------13--------------13------13--------------13--
G|--------------------------------------------------
D|--------------------------------------------------
A|--10----------------------10----------------------
E|--------------------------------------------------

Stave 4:

E|--
B|--
G|--
D|--
A|--
E|--

http://www.guitartabcreator.com
Guitar Tab Creator is intended to store guitar tab created through the tool. It currently does not support in-line text editing. Any text you place in here will be lost. If you need to comment on your tab, please use the "Tab Notes" section located below.