Kendrick gets molested by the KKK

(/) Slide Up  (\) Slide Down  (h) Hammer On  (p) Pull Off  (b) Bend (r) Release (v) Vibrato

Stave 1:

E|-----------0-----------------0--------
B|--------2-----2-----------1-----1-----
G|-----2-----------2-----2-----------2--
D|--0-----------------3-----------------
A|--------------------------------------
E|--------------------------------------

Stave 2:

E|--------------------------------------------
B|-----------------------------0--------------
G|-----------0--------------------------------
D|--------2-----2-----------1-----1-----------
A|-----2-----------2-----2-----------2--------
E|--0-----------------3-----------------------

Stave 3:

E|-----------2-----------------4--------
B|--------3-----3-----------5-----5-----
G|-----2-----------2-----4-----------4--
D|--0-----------------0-----------------
A|--------------------------------------
E|--------------------------------------

Stave 4:

E|--------------------------------------
B|-----------3-----------------5--------
G|--------2-----2-----------4-----4-----
D|-----3-----------3-----5-----------5--
A|--2-----------------4-----------------
E|--------------------------------------

Stave 5:

E|--------------------------------------
B|-----------3--------------------------
G|--------2-----2--------------2--------
D|-----3-----------3--------0-----0-----
A|--2--------------------2-----------2--
E|--------------------3-----------------

Stave 6:

E|-------------0---------------------3p0--------
B|----------2-----2p1-------------1-------1-----
G|-------2-------------2-------2-------------2--
D|--3p0-------------------0h3-------------------
A|----------------------------------------------
E|----------------------------------------------

Stave 7:

E|--
B|--
G|--
D|--
A|--
E|--

http://www.guitartabcreator.com
Guitar Tab Creator is intended to store guitar tab created through the tool. It currently does not support in-line text editing. Any text you place in here will be lost. If you need to comment on your tab, please use the "Tab Notes" section located below.