brunvulf

(/) Slide Up  (\) Slide Down  (h) Hammer On  (p) Pull Off  (b) Bend (r) Release (v) Vibrato

Stave 1:

E|--------------0-----------------------0-------------------------8------------
B|--------0-----------0-----------0-----------0---------------10-----10--------
G|-----5-----5-----5-----5-----7-----7-----7-----7---------9-------------8-----
D|--7-----------------------6--------------------------10----------------------
A|--------------------------------------------------8-----------------------8--
E|-----------------------------------------------------------------------------

Stave 2:

E|-------------------------0-----
B|------------------0------------
G|----------12---------12--------
D|------12------12---------------
A|--10---------------------------
E|-------------------------------

http://www.guitartabcreator.com
Guitar Tab Creator is intended to store guitar tab created through the tool. It currently does not support in-line text editing. Any text you place in here will be lost. If you need to comment on your tab, please use the "Tab Notes" section located below.