Wild Day - Stringer Bessant

(/) Slide Up  (\) Slide Down  (h) Hammer On  (p) Pull Off  (b) Bend (r) Release (v) Vibrato

E|--7--7--7--10--5--5--5--7--3--3--3h5--3--2--
B|--8--8--8------7--7--7-----5--5--5----5--3--
G|--7--7--7------6--6--6-----4--4--4----4--2--
D|--------------------------------------------
A|--------------------------------------------
E|--------------------------------------------



E|--3--2--0--0--
B|--0--3--1--1--
G|--0--2--2--0--
D|--0--0--2--2--
A|--2-----0--3--
E|--3-----------
http://www.guitartabcreator.com
Guitar Tab Creator is intended to store guitar tab created through the tool. It currently does not support in-line text editing. Any text you place in here will be lost. If you need to comment on your tab, please use the "Tab Notes" section located below.