My Funny Valentine

(/) Slide Up  (\) Slide Down  (h) Hammer On  (p) Pull Off  (b) Bend (r) Release (v) Vibrato
E|------------8-----------8-----------8-----------------------------------4-----------------
B|---------8-----------8-----------8--------------8--------------------5--------------1-----
G|------8-----------8-----------8--------------8-----8-----8--------6--------------1--------
D|--10-----------9-----------8--------------7-----------8-----8--7--------------1-----------
A|---------------------------------------8-----------------------------------3--------------
E|------------------------------------------------------------------------------------------



E|--------------------------|------------8-----------8-----------8--------------------------
B|-----------6--------------|---------8-----------8-----------8--------------8--------------
G|--------5--------------4--|------8-----------8-----------8--------------8-----8-----8-----
D|-----6--------------3-----|--10-----------9-----------8--------------7-----------8-----8--
A|--5--------------4--------|---------------------------------------8-----------------------
E|--------------3-----------|---------------------------------------------------------------



E|-----------3--------------------------6--6--8---10--8---6--8---10--8---6--3--3--6--5--3--
B|--------4--------------1-----------4--6--8--9---11--9---8--9---11--9---8--6--4--6--8--4--
G|-----5--------------1-----------4-----7--7--8---10--8---7--8---10--8---7--4--5--6--6--5--
D|--6--------------1-----------4--------6--8--10--12--10--8--10--12--10--8--3--5--6--5--6--
A|--------------3-----------6-----------8--6--8---10--8---6--8---10--8---6--5--3--8--7-----
E|--------------------------------------6-----------------------------------3-----6--5-----



E|------------------------------------8-----------8-----------8--------------8--
B|-----------6---------------------8-----------8-----------8--------------8-----
G|--------5--------------4------8-----------8-----------8--------------8--------
D|-----6--------------3-----10-----------9-----------8--------------7-----------
A|--5--------------4---------------------------------------------8--------------
E|--------------3---------------------------------------------------------------



E|--3------------------8--6--8--3------------8-----------6--8--------
B|--4--6------------8-----9--5--4---------8--------------6--8--6-----
G|--5--5--4------8--------6--6--5------8--------------7-----8--5--4--
D|--6--6--3--10-----------6--5--6--10--------------6--------8--6--3--
A|-----5--4---------------8--7------------------8--------------5--4--
E|--------3---------------6--5------------------------------------3--
http://www.guitartabcreator.com
Guitar Tab Creator is intended to store guitar tab created through the tool. It currently does not support in-line text editing. Any text you place in here will be lost. If you need to comment on your tab, please use the "Tab Notes" section located below.