KO

(/) Slide Up  (\) Slide Down  (h) Hammer On  (p) Pull Off  (b) Bend (r) Release (v) Vibrato


E|----------------------------------------------------
B|----------------------------------------------------
G|-----10--9--7------7------------10--9--7------7--9--
D|--7------------10-----10--9--7------------10--------
A|----------------------------------------------------
E|----------------------------------------------------



E|-----------------------------------------------------
B|-----------------------------------------------------
G|-----10--9--7------7---------10--9--7------7---------
D|--7------------10-----10--9------------10-----10--9--
A|-----------------------------------------------------
E|-----------------------------------------------------



E|----------------------------------------------------------------------------------------------------------
B|----------------------------------------------------------------------------------------------------------
G|------------------------------------------------------------------------------------------------10--9--7--
D|--7--9--7--9--7--9--7--9--10--12--10--10--12--10--12--5--7--5--7--5--7--5--7--5--7--5--7--5--7------------
A|----------------------------------------------------------------------------------------------------------
E|----------------------------------------------------------------------------------------------------------
http://www.guitartabcreator.com
Guitar Tab Creator is intended to store guitar tab created through the tool. It currently does not support in-line text editing. Any text you place in here will be lost. If you need to comment on your tab, please use the "Tab Notes" section located below.