surprise surprise sweet bird of paradox

(/) Slide Up  (\) Slide Down  (h) Hammer On  (p) Pull Off  (b) Bend (r) Release (v) Vibrato

E|----------------------------------------
B|----------------------------------------
G|------------------7------------------7--
D|----------7--7h9-------------7--7h9-----
A|--5--8h9-------------5--8h9-------------
E|----------------------------------------



E|----------------------------------------
B|----------------------------------------
G|------------------5------------------5--
D|----------5--5h7-------------5--5h7-----
A|--3--6h7-------------3--6h7-------------
E|----------------------------------------



E|----------------------------
B|----------------------------
G|----------------------------
D|------------------5---------
A|----------5--5h7-----5h7p5--
E|--3--6h7--------------------
http://www.guitartabcreator.com
Guitar Tab Creator is intended to store guitar tab created through the tool. It currently does not support in-line text editing. Any text you place in here will be lost. If you need to comment on your tab, please use the "Tab Notes" section located below.