cool open string riff

(/) Slide Up  (\) Slide Down  (h) Hammer On  (p) Pull Off  (b) Bend (r) Release (v) Vibrato
E|-----------------------------------------------
B|-----------------------------------------------
G|--------0--4--0-----0--2--0-----0-----9--7--0--
D|-----5-----------5-----------4-----9-----------
A|--3--------------------------------------------
E|-----------------------------------------------



E|---------------------------------------------------
B|---------------------------------------------------
G|--------0--4--0-----0--2--0-----0---------7--7--0--
D|-----5-----------5-----------4-----4---9-----------
A|--3------------------------------------------------
E|---------------------------------------------------
http://www.guitartabcreator.com
Guitar Tab Creator is intended to store guitar tab created through the tool. It currently does not support in-line text editing. Any text you place in here will be lost. If you need to comment on your tab, please use the "Tab Notes" section located below.