steal axe solo

(/) Slide Up  (\) Slide Down  (h) Hammer On  (p) Pull Off  (b) Bend (r) Release (v) Vibrato
E|--------------------------------------------------------------------------------------------------
B|--------------------------------------------------------------------------------------------------
G|--12h14p12--10--12----12\16--16--16--14--12--10--12----12--10--12p10h12p10h12p10h12p10------------
D|--------------------------------------------------------------------------------------13h15p13h15p
A|--------------------------------------------------------------------------------------------------
E|--------------------------------------------------------------------------------------------------



E|---------------------------------------------------------------------------------------------
B|---------------------------------------------------------------------------------------------
G|---------------------------------------------------------------------------------------------
D|--13h15p13h15----12p10h12p10h12p10h12p10----13h15p13h15p13h15p13h15--------------------------
A|-----------------------------------------------------------------------17h19p17h19p17h19-----
E|---------------------------------------------------------------------------------------------



E|--------------------------------------------------------------------------------------------------
B|-----------------------17--------------------------12--------------------------10------------------
G|-------------------18------18------------------13------13------------------11------11--------------
D|---------------18--------------18----------13--------------13----------11--------------11----------
A|--19p17h19b19----------------------19--14----------------------14--12----------------------12--12--
E|---------------------------------------------------------------------------------------------------



E|----------------------------
B|----------------------------
G|----------------------------
D|----------------------------
A|--10--12\14--14--12--10--8--
E|----------------------------
http://www.guitartabcreator.com
Guitar Tab Creator is intended to store guitar tab created through the tool. It currently does not support in-line text editing. Any text you place in here will be lost. If you need to comment on your tab, please use the "Tab Notes" section located below.