steal axe

(/) Slide Up  (\) Slide Down  (h) Hammer On  (p) Pull Off  (b) Bend (r) Release (v) Vibrato
E|-------------------------------------------------------------
B|-------------------------------------------------------------
G|-------------------------------------------------------------
D|--8--8----6--6----4--4----6--6----8--8----6--6----4--4----6--
A|--8--8----6--6----4--4----6--6----8--8----6--6----4--4----6--
E|--8--8----6--6----4--4----6--6----8--8----6--6----4--4----6--



E|----------------------------------------------------------------------------------
B|----------------------------------------------------------------------------------
G|----------------------------------------------------------------------------------
D|--8--8--8--8--8----8--8--8--8--8----6--6--6--6--6----6--6--6--6--6----4--4--4--4--
A|--8--8--8--8--8----8--8--8--8--8----6--6--6--6--6----6--6--6--6--6----4--4--4--4--
E|--8--8--8--8--8----8--8--8--8--8----6--6--6--6--6----6--6--6--6--6----4--4--4--4--



E|------------------------
B|------------------------
G|------------------------
D|--4----4--4--4--4--4---- x2
A|--4----4--4--4--4--4----
E|--4----4--4--4--4--4----




E|--------------------------------------
B|--------------------------------------
G|--------------------------------------
D|--8--8----6----------8--8----6-------- x2
A|--8--8----6--9--7----8--8----6--9--7--
E|--8--8----6----------8--8----6--------



E|----------------------------------------------------------------------------------
B|----------------------------------------------------------------------------------
G|----------------------------------------------------------------------------------
D|--8--8--8--8--8----8--8--8--8--8----6--6--6--6--6----6--6--6--6--6----4--4--4--4--
A|--8--8--8--8--8----8--8--8--8--8----6--6--6--6--6----6--6--6--6--6----4--4--4--4--
E|--8--8--8--8--8----8--8--8--8--8----6--6--6--6--6----6--6--6--6--6----4--4--4--4--



E|------------------------
B|------------------------
G|------------------------
D|--4----4--4--4--4--4---- x2
A|--4----4--4--4--4--4----
E|--4----4--4--4--4--4----




E|--------------------------------------
B|--------------------------------------
G|--------------------------------------
D|--8--8----6----------8--8----6-------- x4
A|--8--8----6--9--7----8--8----6--9--7--
E|--8--8----6----------8--8----6--------






E|-------
B|-------
G|-------
D|--8----
A|--8----
E|--8----



E|-------------------------------------------------
B|-------------------------------------------------
G|-------------------------------------------------
D|--8-------------6--------------4--------------6--
A|--8-------------6--------------4--------------6-- Rythem behind solo.
E|--8-------------6--------------4--------------6--



E|--------------------------------------
B|--------------------------------------
G|--------------------------------------
D|--8--8----6----------8--8----6-------- x4
A|--8--8----6--9--7----8--8----6--9--7--
E|--8--8----6----------8--8----6--------


http://www.guitartabcreator.com
Guitar Tab Creator is intended to store guitar tab created through the tool. It currently does not support in-line text editing. Any text you place in here will be lost. If you need to comment on your tab, please use the "Tab Notes" section located below.