song 1

(/) Slide Up  (\) Slide Down  (h) Hammer On  (p) Pull Off  (b) Bend (r) Release (v) Vibrato
E|-----------------------
B|-----------------------
G|-----------------------
D|--2--2--7--5--2--2--2--
A|--2--2--7--5--2--2--2-- x8
E|--0--0--5--3--0--0--0--



E|-------------------
B|-------------------
G|-------5--2-----2--
D|----7--5--2-----2-- x2
A|----7--3--0-----0--
E|----5--------------



E|-----------------------
B|-----------------------
G|-----------------------
D|--2--2--7--5--2--2--2--
A|--2--2--7--5--2--2--2-- x5
E|--0--1--5--7--0--0--0--
http://www.guitartabcreator.com
Guitar Tab Creator is intended to store guitar tab created through the tool. It currently does not support in-line text editing. Any text you place in here will be lost. If you need to comment on your tab, please use the "Tab Notes" section located below.