go

(/) Slide Up  (\) Slide Down  (h) Hammer On  (p) Pull Off  (b) Bend (r) Release (v) Vibrato
E|----------------------------------------------------------------------------------------
B|----------------------------------------------------------------------------------------
G|--11--11--------------------11--11--------------------11--11--------------------11--11--
D|--11--11--------------------11--11--------------------11--11--------------------11--11--
A|--9---9---------------------9---9---------------------9---9---------------------9---9---
E|----------0--0--0--0--0--0----------0--0--0--0--0--0----------0--0--0--0--0--0----------



E|----------
B|----------
G|--13--13--
D|--13--13--
A|--11--11--
E|----------



E|-----------------------------------------------------------------------------------------------
B|-----------------------------------------------------------------------------------------------
G|-----------------------------------------------------------------------------------------------
D|-----------------------------------------------------------------------------------------------
A|-----------------------------------------------------------------------------------------------
E|--4p0--0--0--0--0--0--0--0--0--0--0--0--0--4p0--0--0--0--0--0--0--0--0--0--0--0--0--4p0--0--0--



E|---------------------------------------------------------
B|---------------------------------------------------------
G|---------------------------------------------------------
D|-------------------------------------------------6--9--9-
A|-------------------------------------------------6--9--9-
E|--0--0--0--0--0--0--0--0--0--0--4p0--0--0--0--0--4--7--7-



E|--------------------------------------------------
B|--------------------------------------------------
G|-----------------------------------------------6--
D|--5--3--------------------------------------------
A|--5--3--------------------------------------------
E|--3--1--0--0--0--0--0--0--0--0--0--0--0--0--0-----



E|--------------------------------
B|-----------------------5--------
G|--6--8--6--4--2--4--4-----4--6--
D|--------------------------------
A|--------------------------------
E|--------------------------------



E|-------------------
B|-------------------
G|--11--9--7--9--11--
D|--11--9--7--9--11--
A|--9---7--5--7--9---
E|-------------------
http://www.guitartabcreator.com
Guitar Tab Creator is intended to store guitar tab created through the tool. It currently does not support in-line text editing. Any text you place in here will be lost. If you need to comment on your tab, please use the "Tab Notes" section located below.