Stories By: There For Tomorrow Album:There For Tomorrow Tuning: Drop D

[code]
(/) Slide Up (\) Slide Down (h) Hammer On (p) Pull Off (b) Bend (r) Release (v) Vibrato
E|--9------9------8------9------13------13----------------------9------9------8------9---------
B|---------------------------------------------------------------------------------------------
G|----------------------------------------------10------10-------------------------------------
D|-----11-----11-----11-----11------11------11------11------11-----11-----11-----11-----11-----
A|---------------------------------------------------------------------------------------------
E|---------------------------------------------------------------------------------------------



E|--13------13----------------------9------9------8------9------13------13----------------------
B|----------------------------------------------------------------------------------------------
G|------------------10------10--------------------------------------------------10------10------
D|------11------11------11------11-----11-----11-----11-----11------11------11------11------11--
A|----------------------------------------------------------------------------------------------
E|----------------------------------------------------------------------------------------------



E|--9------9------8------9------13------13----------------------
B|--------------------------------------------------------------
G|----------------------------------------------10------10------
D|-----11-----11-----11-----11------11------11------11------11--
A|--------------------------------------------------------------
E|--------------------------------------------------------------



E|--------------------------------------------------------------------
B|--------------------------------------------------------------------
G|--------------------------------------------------------------------
D|--8--8--8--8--8--8--8--8--8--8--8--8--8--8--8--8--8--8--8--8--8--8--
A|--8--8--8--8--8--8--8--8--8--8--8--8--8--8--8--8--8--8--8--8--8--8--
E|--8--8--8--8--8--8--8--8--8--8--8--8--8--8--8--8--8--8--8--8--8--8--
[/code]
[url]http://www.guitartabcreator.com[/url]
Guitar Tab Creator is intended to store guitar tab created through the tool. It currently does not support in-line text editing. Any text you place in here will be lost. If you need to comment on your tab, please use the "Tab Notes" section located below.