Tappy Thang

(/) Slide Up  (\) Slide Down  (h) Hammer On  (p) Pull Off  (b) Bend (r) Release (v) Vibrato
E|--0--0--0--0--
B|--0--0--0--0--
G|--x--x--x--x--
D|--2--4--5--7--
A|--2--4--5--7--
E|--2--4--5--7--



E|-----0--------0--------0--------0----------------0--------0--------0--------0-----
B|--7-----0--9-----0--7-----0--9-----0--12--12--7-----0--9-----0--7-----0--4-----0--
G|--x--------x--------x--------x----------------x--------x--------x--------x--------
D|--5--------7--------5--------7----------------5--------7--------5--------2--------
A|--5--------7--------5--------7--------9---9---5--------7--------5--------2--------
E|--5--------7--------5--------7--------9---9---5--------7--------5-----------------



E|-----0--------0--------0--------0--------0--------0--------0--------0--------
B|--4-----0--4-----0--4-----0--4-----0--4-----0--4-----0--4-----0--4-----0-----
G|-----------------------------------------------------------------------------
D|--2-----------------2-----------------2-----------------2--------------------
A|--2-----------------2-----------------2-----------------2--------------------
E|-----------------------------------------------------------------------------



E|-----0--------0--------0--------0----------0--------0--------0--------0-----5h7p5p0--
B|--7-----0--7-----0--7-----0--7-----0----7-----0--7-----0--7-----0--7-----0-----------
G|-------------------------------------------------------------------------------------
D|-------------------------------------------------------------------------------------
A|--5-----------------5-----------------4h5-----------------5--------------------------
E|--5-----------------5-----------------4-5-----------------5--------------------------
http://www.guitartabcreator.com
Guitar Tab Creator is intended to store guitar tab created through the tool. It currently does not support in-line text editing. Any text you place in here will be lost. If you need to comment on your tab, please use the "Tab Notes" section located below.