Idea 1

(/) Slide Up  (\) Slide Down  (h) Hammer On  (p) Pull Off  (b) Bend (r) Release (v) Vibrato

E|----------------------------------|-------------------------------------
B|----------------------------------|-------------------------------------
G|--5-----------5-------------------|--5-----------5----------------------
D|-----7-----------7----------------|-----7-----------7-------------------
A|--------9-----------9-----0-------|--------9-----------9-----0----------
E|-----------0-----------0--1----0--|-----------0-----------0--1----0-----



E|----------------------------------|-------------------------------------
B|----------------------------------|-------------------------------------
G|-----------0-----------0----------|-----------0-----------0--5----5--4--
D|--------4-----------4-----3--0----|--------4-----------4-----7----7--5--
A|-----3-----------3--------3--2----|--0--0--------0--0--------9----7-----
E|--6-----------5-----------3--2----|--0--0--------0--0-------------------



E|-----------0--------------0--------|--
B|-----------0--------------0--------|--
G|-----------0--------------0--------|--
D|--------------0--------------3--3--|--
A|--------------1--------------3--3--|--
E|--2--2--2-----3--2--2--2-----3--3--|--
http://www.guitartabcreator.com
Guitar Tab Creator is intended to store guitar tab created through the tool. It currently does not support in-line text editing. Any text you place in here will be lost. If you need to comment on your tab, please use the "Tab Notes" section located below.