Phantom Ensemble: ツインソウル~輪廻する旋律~ - C CLAYS

(/) Slide Up  (\) Slide Down  (h) Hammer On  (p) Pull Off  (b) Bend (r) Release (v) Vibrato


E|------------------------------------------------------------------
B|------------------------------------------------------------------
G|------------------14--13--------------------------14--13----------
D|--------------11----------14------------------11----------14------
A|--11--12--14------------------14--11--12--14------------------14--
E|------------------------------------------------------------------



E|------------------------------------------------------------------
B|------------------------------------------------------------------
G|------------------14--13--------------------------14--13----------
D|--------------11----------14------------------11----------14------
A|--11--12--14------------------14--11--12--14------------------14--
E|------------------------------------------------------------------



E|------------------------------------------------------------------
B|------------------------------------------------------------------
G|------------------------------------------------------------------
D|--------------11--14--------------------------11--14--------------
A|--11--12--14----------14--12--11--11--12--14----------14--12--11--
E|------------------------------------------------------------------



E|--
B|--
G|--
D|--
A|--
E|--
http://www.guitartabcreator.com
Guitar Tab Creator is intended to store guitar tab created through the tool. It currently does not support in-line text editing. Any text you place in here will be lost. If you need to comment on your tab, please use the "Tab Notes" section located below.