tabs

(/) Slide Up  (\) Slide Down  (h) Hammer On  (p) Pull Off  (b) Bend (r) Release (v) Vibrato


E|----------------------------------------------------|----------------------------------------------
B|----------------------------------------------------|----------------------------------------8-----
G|------------------------------12----------------11--|----------------------------------------------
D|---\10--9-------------------------------------------|---\9--7---------------------9----------------
A|------------\10--9---------9------9------9----------|-----------\10--9---------7----------7--------
E|--0--------0--------0--10------------10-----10------|--0-------0--------10--8--------0\5-----------



E|--------------------------------------|-------------------------------|---
B|--------------------------------------|-----------------------------8-|---
G|----------------------12-----------11-|-------------------------------|---
D|--\10-9-------------------------------|--\9-7---------------9---------|---
A|---------\10-9------9----9----9-------|--------\10-9------7-------7---|---
E|-0------0------0-10--------10---10----|-0-----0------10-8-----0\5-----|---



E|----------------------------------------3-
B|---------------8--------------------------
G|-------------5------------------------2---
D|-----------7-------10-9-7-----5-4---2-----
A|--\9-8---5------------------3-----0-------
E|-0-----0---------0--------0---------------
http://www.guitartabcreator.com
Guitar Tab Creator is intended to store guitar tab created through the tool. It currently does not support in-line text editing. Any text you place in here will be lost. If you need to comment on your tab, please use the "Tab Notes" section located below.