asdasd

(/) Slide Up  (\) Slide Down  (h) Hammer On  (p) Pull Off  (b) Bend (r) Release (v) Vibrato
E|-----------------------------------------
B|------------------------------10--9--10--
G|------------------------5----------------
D|--3--5--15--13-------------7-------------
A|----------------12-----------------------
E|--------------------10-------------------



E|-------------
B|-------------
G|-------------
D|--6--11--11--
A|-------------
E|-------------
http://www.guitartabcreator.com
Guitar Tab Creator is intended to store guitar tab created through the tool. It currently does not support in-line text editing. Any text you place in here will be lost. If you need to comment on your tab, please use the "Tab Notes" section located below.