三寸天堂 步步惊心片尾曲吉他谱 intro

三寸天堂 步步惊心片尾曲吉他谱 intro 

Follow me on weibo:
http://www.weibo.com/jyiproduction
Facebook:
http://www.facebook.com/jyi.official

Capo: 2

(/) Slide Up (\) Slide Down (h) Hammer On (p) Pull Off (b) Bend (r) Release (v) Vibrato
E|--3-----0-------------------------3-----0---------------------
B|-----3-----------------0-------------3-----------------1------
G|-----------2-----2-------------------------0-----0------------
D|--------------3-----3-------------------------2-----2---------
A|-------------------------------------------------------0------
E|-----------1-----------3-------------------0------------------



E|--3-----0/3--0--------0/3--0--0--
B|-----3-------------3----------1--
G|----------------2--0----------0--
D|-------------3----------------2--
A|------------------------------3--
E|---------------------------------



E|-----0-----------------------0/3--------------------------
B|--3--------------1--------3-------0-----------1-----------
G|--------0--------2----------------------0-----------2-----
D|--------------3--------0-------------2-----2-----2-----2--
A|----------------------------------------------0-----------
E|-----------1--------3-------------0-----------------------



E|----------------------------------------------------
B|--------------0--------------------1-------------1--
G|--2-----2-----------0-----------2-------------2-----
D|-----3-----3-----0-----0-----2-------------2--------
A|--------------------------0-------------0-----------
E|--1-----------3-------------------------------------
http://www.guitartabcreator.com

三寸天堂 步步惊心片尾曲吉他谱 intro

Follow me on weibo:
http://www.weibo.com/jyiproduction

Facebook:
http://www.facebook.com/jyi.official

三寸天堂 步步惊心片尾曲吉他谱 intro
Guitar Tab Creator is intended to store guitar tab created through the tool. It currently does not support in-line text editing. Any text you place in here will be lost. If you need to comment on your tab, please use the "Tab Notes" section located below.