blue riff

(/) Slide Up  (\) Slide Down  (h) Hammer On  (p) Pull Off  (b) Bend (r) Release (v) Vibrato


E|-------------------------------------------------------------------------
B|-------------------------------------------------------------------------
G|--------------------------------0-----2\4--2--0--------------0-----------
D|--------0-----2--0-----------2-----2----------------2--0--------2--0--2--
A|-----2-----2--------2--1--0-------------------------------2--------------
E|--0----------------------------------------------0-----------------------



E|--------------------------------------------------------------------5p3-----3-----3--
B|---------------------------------------------3--5--3--0----------3-------5-----5-----
G|--------------------0--2\4-----2--0-----2\4-----------------2\4----------------------
D|-----2--0-----0--2-------------------2-----------------------------------------------
A|-----------2----------------0----------------------------0---------------------------
E|--0----------------------------------------------------------------------------------



E|-----0-----------------------0------------------------------------------------------------
B|--------3-----------------------3-------------------0-------------------------------3-----
G|-----------4--3--2--0--------------4--3--2p0-----0-----2--0--------------------2\4-----4--
D|-----------------------2----------------------2--------------------------0--2-------------
A|-------------------------------------------------------------2--0--1--2-------------------
E|--0-----------------------0---------------------------------------------------------------



E|------------------------------------3--5--6--7--6--5--3-----3--------------------------
B|---------------------3--5--3-----5-----------------------5-----5--3--------------------
G|-----2p0-----0--2\4--------------------------------------------------4--0--2--3--4--4--
D|----------2----------------------------------------------------------------------------
A|--0------------------------------------------------------------------------------------
E|------------------------------0--------------------------------------------------------
http://www.guitartabcreator.com
Guitar Tab Creator is intended to store guitar tab created through the tool. It currently does not support in-line text editing. Any text you place in here will be lost. If you need to comment on your tab, please use the "Tab Notes" section located below.