geeetar

[code]
(/) Slide Up (\) Slide Down (h) Hammer On (p) Pull Off (b) Bend (r) Release (v) Vibrato


E|--------------------------------------------------------------------------------------------------
B|--------------------------------------------------------------------------------------------------
G|--------7--------7--------7--------7--------7-----------6--------6--------6--------6--------6-----
D|-----8--------8--------8--------8--------8-----8-----7--------7--------7--------7--------7-----7--
A|--9--------9--------9--------9--------9-----------8--------8--------8--------8--------8-----------
E|--------------------------------------------------------------------------------------------------



E|--------------------------------------------------------------------------------------------------
B|--------------------------------------------------------------------------------------------------
G|--------5--------5--------5--------5--------5-----------4--------4--------4--------4--------4-----
D|-----6--------6--------6--------6--------6-----6-----5--------5--------5--------5--------5-----5--
A|--7--------7--------7--------7--------7-----------6--------6--------6--------6--------6-----------
E|--------------------------------------------------------------------------------------------------



E|-------10-------10-------10-------10-------10----------9-------9-------9-------9-------9---------8-
B|----11-------11-------11-------11-------11----11----10------10------10------10------10---10----9---
G|-12-------12-------12-------12-------12----------11------11------11------11------11---------10-----
D|---------------------------------------------------------------------------------------------------
A|---------------------------------------------------------------------------------------------------
E|---------------------------------------------------------------------------------------------------



E|------8------8------8------8-------7-----7-----7-----7-----7---------10-------10-------10-------10-
B|----9------9------9------9---9---8-----8-----8-----8-----8---8----11-------11-------11-------11----
G|-10-----10-----10-----10-------9-----9-----9-----9-----9-------12-------12-------12-------12-------
D|---------------------------------------------------------------------------------------------------
A|---------------------------------------------------------------------------------------------------
E|---------------------------------------------------------------------------------------------------



E|-------10----------9-------9-------9-------9-------9---------8------8------8------8------8-------
B|----11----11----10------10------10------10------10---10----9------9------9------9------9---9---8-
G|-12----------11------11------11------11------11---------10-----10-----10-----10-----10-------9---
D|-------------------------------------------------------------------------------------------------
A|-------------------------------------------------------------------------------------------------
E|-------------------------------------------------------------------------------------------------




[/code]
[url]http://www.guitartabcreator.com[/url]
Guitar Tab Creator is intended to store guitar tab created through the tool. It currently does not support in-line text editing. Any text you place in here will be lost. If you need to comment on your tab, please use the "Tab Notes" section located below.