Right here waiting for you Richard Max

(/) Slide Up  (\) Slide Down  (h) Hammer On  (p) Pull Off  (b) Bend (r) Release (v) Vibrato


E|--------------------------------
B|--8--8--6--5--3--3--3--5--6--5--
G|--------------------------------
D|--------------------------------
A|--------------------------------
E|--------------------------------



E|-----------------------------
B|--1--1--3--5--3--1--0--------
G|-----------------------2--0--
D|-----------------------------
A|-----------------------------
E|-----------------------------



E|-----------------------------------------------------------------
B|--8--8--6--5--3--3--3--3--5--6--5--1--1--3--5--6--5--3--1--0--1--
G|-----------------------------------------------------------------
D|-----------------------------------------------------------------
A|-----------------------------------------------------------------
E|-----------------------------------------------------------------
http://www.guitartabcreator.com
Guitar Tab Creator is intended to store guitar tab created through the tool. It currently does not support in-line text editing. Any text you place in here will be lost. If you need to comment on your tab, please use the "Tab Notes" section located below.