Say Goodbye - Poison Idea

(/) Slide Up  (\) Slide Down  (h) Hammer On  (p) Pull Off  (b) Bend (r) Release (v) Vibrato

Intro - guitar 1
E|--------|--|--|--|--|--------|--|--|--|--|--------|--|--|--|--|--------|--|--|--|--|--
B|--------|--|--|--|--|--------|--|--|--|--|--------|--|--|--|--|--------|--|--|--|--|--
G|--3--4--|--|--|--|--|--3--4--|--|--|--|--|--3--4--|--|--|--|--|--3--4--|--|--|--|--|--
D|--3--4--|--|--|--|--|--3--4--|--|--|--|--|--3--4--|--|--|--|--|--3--4--|--|--|--|--|--
A|--1--2--|--|--|--|--|--1--2--|--|--|--|--|--1--2--|--|--|--|--|--1--2--|--|--|--|--|--
E|--1--2--|--|--|--|--|--1--2--|--|--|--|--|--1--2--|--|--|--|--|--1--2--|--|--|--|--|--


Intro - guitar 2
E|--------------------------------------------------12--12--10--10-----------------------------
B|--12--12--12--10--10--10--12--12--12--10--10--10------------------12--12--12--10--10--10-----
G|---------------------------------------------------------------------------------------------
D|---------------------------------------------------------------------------------------------
A|---------------------------------------------------------------------------------------------
E|---------------------------------------------------------------------------------------------



E|----------------------------------------
B|--12--12--12--10--10--10--8--8--10--10--
G|----------------------------------------
D|----------------------------------------
A|----------------------------------------
E|----------------------------------------


Riff 1 - both guitars, chords slide down to up
E|--------|--|--|--------|--|--|--------|--|--|--------|--|--|--
B|--------|--|--|--------|--|--|--------|--|--|--------|--|--|--
G|--3--4--|--|--|--3--4--|--|--|--3--4--|--|--|--3--4--|--|--|--
D|--3--4--|--|--|--3--4--|--|--|--3--4--|--|--|--3--4--|--|--|--
A|--1--2--|--|--|--1--2--|--|--|--1--2--|--|--|--1--2--|--|--|--
E|--1--2--|--|--|--1--2--|--|--|--1--2--|--|--|--1--2--|--|--|--


Verse - both guitars (repeats), last verse pauses after each repeat.
E|-----|--|--|-----|--|--|-----|--|--|-----|--|--|--
B|-----|--|--|-----|--|--|-----|--|--|-----|--|--|--
G|-----|--|--|--4--|--|--|-----|--|--|-----|--|--|--
D|--4--|--|--|--4--|--|--|--5--|--|--|--7--|--|--|--
A|--4--|--|--|--2--|--|--|--5--|--|--|--7--|--|--|--
E|--2--|--|--|--2--|--|--|--3--|--|--|--5--|--|--|--


Chorus - both guitars (repeats)
E|-----|--|--------|--|--------|--|--------------------
B|-----|--|--------|--|--------|--|--------------------
G|-----|--|--------|--|--------|--|--------------------
D|--2--|--|--3--2--|--|--3--2--|--|--3-----------------
A|--2--|--|--3--2--|--|--3--2--|--|--3-----------------
E|--0--|--|--1--0--|--|--1--0--|--|--1--3--1--0--1--0--
http://www.guitartabcreator.com
Guitar Tab Creator is intended to store guitar tab created through the tool. It currently does not support in-line text editing. Any text you place in here will be lost. If you need to comment on your tab, please use the "Tab Notes" section located below.