Pain Killer - Poison Idea

(/) Slide Up  (\) Slide Down  (h) Hammer On  (p) Pull Off  (b) Bend (r) Release (v) Vibrato

INTRO - both guitars
E|--------------------------------------------------------|-----|-----|-----|-----
B|--------------------------------------------------------|-----|-----|-----|-----
G|--12--12--12--12--11--10--11--10--9--10--9--8--7--6-----|--4--|-----|--4--|-----
D|--12--12--12--12--11--10--11--10--9--10--9--8--7--6--5--|--4--|--5--|--4--|--5--
A|--10--10--10--10--9---8---9---8---7--8---7--6--5--4--5--|--2--|--5--|--2--|--5--
E|-----------------------------------------------------3--|-----|--3--|-----|--3--



VERSE - guitar 1, chugging chords
E|-----|-----|-----|-----|-----|-----|-----|-----|-----|-----|-----|-----|-----|-----|-----
B|-----|-----|-----|-----|-----|-----|-----|-----|-----|-----|-----|-----|-----|-----|-----
G|--4--|-----|--4--|-----|--4--|-----|--4--|-----|--4--|-----|--4--|-----|--4--|--4--|-----
D|--4--|--5--|--4--|--5--|--4--|--5--|--4--|--5--|--4--|--5--|--4--|--5--|--4--|--4--|-----
A|--2--|--5--|--2--|--5--|--2--|--5--|--2--|--5--|--2--|--5--|--2--|--5--|--2--|--2--|-----
E|-----|--3--|-----|--3--|-----|--3--|-----|--3--|-----|--3--|-----|--3--|-----|-----|-----
'Sit in my room...' 'That trained...' 'Battle with the...'


E|-----|-----------|-----------|-----------|-----------
B|-----|-----------|-----------|-----------|-----------
G|--9--|--6--5--4--|--6--5--4--|--6--5--4--|--6--5--4--
D|--9--|--6--5--4--|--6--5--4--|--6--5--4--|--6--5--4--
A|--7--|--4--3--2--|--4--3--2--|--4--3--2--|--4--3--2--
E|-----|-----------|-----------|-----------|-----------
'Have I yet, begun to fight, as the day, turns into night'


VERSE - guitar 2, chuggs chords for first half, then lead below for second half
E|--------------------------------------------------|--------------------------------------------
B|--------------------------------------------------|--------------------------------------------
G|--------------------------------------------------|--------------------------------------------
D|--------------------------------------------------|--------------------------------------------
A|--2--2--2--3--2--2--4--2--5--------5--------5-----|--2--2--2--3--2--2--4--2--5--------5--------
E|-----------------------------3--3-----3--3-----3--|-----------------------------3--3-----3-----
'That trained delirium' '80 Proof Sweat'


E|-----------|--------------------------------------------------------------------------|--
B|-----------|--------------------------------------------------------------------------|--
G|-----------|--------------------------------------------------------------------------|--
D|-----------|--------------------------------------------------2--2-----2--2-----2-----|--
A|-----5-----|--2--2--4--2--2--4--2--4--2--2--4--2--2--4--2--4--------4--------4-----4--|--
E|--3-----3--|--------------------------------------------------------------------------|--
'Battle with the Bottle' 'But I haven't won yet...'


E|-----------|-----------|-----------|-----------
B|-----------|-----------|-----------|-----------
G|--6--5--4--|--6--5--4--|--6--5--4--|--6--5--4--
D|--6--5--4--|--6--5--4--|--6--5--4--|--6--5--4--
A|--4--3--2--|--4--3--2--|--4--3--2--|--4--3--2--
E|-----------|-----------|-----------|-----------
'Have I yet, begun to fight, as the day, turns into night'


CHORUS - repeats 4 times
E|-----|--|--|-----------
B|-----|--|--|-----------
G|--4--|--|--|--4--------
D|--4--|--|--|--4--2--4--
A|--2--|--|--|--2--2--4--
E|-----|--|--|-----0--2--
'Another lost weekend....'
http://www.guitartabcreator.com
Guitar Tab Creator is intended to store guitar tab created through the tool. It currently does not support in-line text editing. Any text you place in here will be lost. If you need to comment on your tab, please use the "Tab Notes" section located below.