Marked For Life (lead) - Poison Idea

(/) Slide Up  (\) Slide Down  (h) Hammer On  (p) Pull Off  (b) Bend (r) Release (v) Vibrato

LEAD - both guitars doubling the same lead???
E|-------------------------------------------------------------------------------------------------
B|----------------------------------------------------------------------11--13--11----------11-----
G|--------------------------------------3--5--3--------3--5--3--12--12--------------12--12---------
D|--------------------------------5--5-----------5--5----------------------------------------------
A|--------1--3--1--------1--3--1-------------------------------------------------------------------
E|--3--3-----------3--3----------------------------------------------------------------------------



E|----------15--15--15--15--14--15--18--18--18--18--17--18--
B|--13--11--15--15--15--15--14--15--18--18--18--18--17--18--
G|----------15--15--15--15--14--15--18--18--18--18--17--18--
D|----------------------------------------------------------
A|----------------------------------------------------------
E|----------------------------------------------------------
http://www.guitartabcreator.com
Guitar Tab Creator is intended to store guitar tab created through the tool. It currently does not support in-line text editing. Any text you place in here will be lost. If you need to comment on your tab, please use the "Tab Notes" section located below.