HARD AND CHEAP - POISON IDEA

(/) Slide Up  (\) Slide Down  (h) Hammer On  (p) Pull Off  (b) Bend (r) Release (v) Vibrato


HARD AND CHEAP - POISON IDEA

Riff #2 (verse in A)
E|------------------------------------------------------- (REPEAT)
B|-------------------------------------------------------
G|--2--2--4--2-------2--2--4--2-------2---------------2--
D|--2--2--4--2-------2--2--4--2-------2---------------2--
A|--0--0--0--0--3b4--0--0--0--0--3b4--0-------0--3b4--0--
E|---------------------------------------3b4-------------


Riff #3 (verse in D)
E|------------------------------------------------------- (REPEAT)
B|--3--3-----3-------3--3-----3-------3---------------3--
G|--2--2--4--2-------2--2--4--2-------2---------------2--
D|--0--0--0--0--3b4--0--0--0--0--3b4--0-------0--3b4--0--
A|---------------------------------------3b4-------------
E|-------------------------------------------------------


Riff #4 (Chorus)
E|------------------------------------------------------------- (REPEAT)
B|-------------------------------------------------------------
G|-----------2--2--4--2-------2--2--4--2-------2---------------
D|--3--2--6--2--2--4--2-------2--2--4--2-------2---------------
A|--3--2--6--0--0--0--0--3b4--0--0--0--0--3b4--0-------0--3b4--
E|--1--0--4---------------------------------------3b4----------


Riff #1 (Intro)
E|---------------- (REPEAT)
B|----------------
G|----------------
D|--10--10--8--7--
A|--10--10--8--7--
E|--8---7---6--5--


Riff #5 (Rhythm behind lead)
E|----------- (REPEAT)
B|-----------
G|-----------
D|--2--4--5--
A|--2--4--5--
E|--0--2--3--
http://www.guitartabcreator.com
Guitar Tab Creator is intended to store guitar tab created through the tool. It currently does not support in-line text editing. Any text you place in here will be lost. If you need to comment on your tab, please use the "Tab Notes" section located below.