You Raise Me Up Intro

(/) Slide Up  (\) Slide Down  (h) Hammer On  (p) Pull Off  (b) Bend (r) Release (v) Vibrato
E|-----------0--------0----------1--------1--------0--------0-----------------0--3--------3-----------
B|--------1-----1--------1----------1--------1--------1--------1--------0--1--------1--------1--------
G|--0--0-----------0--------0----------2--------2--------0--------0--------------------0--------0-----
D|----------------------------------------------------------------------------------------------------
A|-----------3-------------------------------------3-----------------3-----------3--------------------
E|-------------------------------1--------------------------------------------------------------------



E|--1--------1--------3--------3--------3----3--3--7--8--------8--------8---------8---------8--------
B|-----1--------1--------3--------3-----3----------------5--------5--------8---------8---------8-----
G|--------2--------2--------0--------0--0-------------------5--------5--------10--------10--------9--
D|--------------------------------------0------------------------------------------------------------
A|--------------------------------------2-------------------------------8----------------------------
E|--1-----------------3-----------------3-------------5-------------------------------------8--------



E|--8--------8---------8---------0--------0--------1--------1--------0--------0-----0-----
B|-----8--------8---------8---------1--------1--------1--------1-----------1-----------1--
G|--------9--------10--------10--------0--------0--------2--------2-----0--------0--------
D|----------------------------------------------------------------------------------------
A|-----------8-------------------3-----------------------------------3-----------------3--
E|-------------------------------------------------1--------------------------------------
http://www.guitartabcreator.com
Guitar Tab Creator is intended to store guitar tab created through the tool. It currently does not support in-line text editing. Any text you place in here will be lost. If you need to comment on your tab, please use the "Tab Notes" section located below.