Blessed Be Your Name

(/) Slide Up  (\) Slide Down  (h) Hammer On  (p) Pull Off  (b) Bend (r) Release (v) Vibrato
E|--7--9--5--0------5--5--5--5--5--5--5--5------4--5--5/7--5--5--
B|---------------------------------------------------------------
G|---------------------------------------------------------------
D|---------------------------------------------------------------
A|---------------------------------------------------------------
E|---------------------------------------------------------------



E|--5--5--5--5--5--5--5--5----------------------------
B|----------------------------------------------------
G|----------------------------------------------------
D|----------------------------------7--7--7--7--7--7--
A|----------------------------------------------------
E|----------------------------------------------------



E|--------------------------------------------------------------
B|--------------------------------------------------------------
G|--6--6--6--7--9--7----7--6---------6--6--6--7--9--7--7--6-----
D|----------------------------7------------------------------9--
A|--------------------------------------------------------------
E|--------------------------------------------------------------



E|-------------12--12--12--12--12--12--12--12--12--12--12--12--10--10----------
B|---------------------------------------------------------------------12--14--
G|--6--------------------------------------------------------------------------
D|-----------------------------------------------------------------------------
A|-----------------------------------------------------------------------------
E|-----------------------------------------------------------------------------



E|--9----7------7--9----12--12--10--9--10--12--12--12--12--14--14--14--14--
B|----------10-------------------------------------------------------------
G|-------------------------------------------------------------------------
D|-------------------------------------------------------------------------
A|-------------------------------------------------------------------------
E|-------------------------------------------------------------------------



E|-----------------------------------------------------------------------------------------------
B|-----------------------------------------------------------------------------------------------
G|--9-----9-----9-----9-----7-----7-----7-----7-----6-----6-----6--7--9--7-----7-----7-----7-----
D|-----7-----7-----7-----7-----7-----7-----7-----7-----7-----7--------------7-----7-----7-----7--
A|-----------------------------------------------------------------------------------------------
E|-----------------------------------------------------------------------------------------------



E|-------------------------------------------------9--12--10--9--7--5--7--9--7------5--4--2--0--5--5--
B|-----------------------------------------10--12-----------------------------------------------------
G|---------------------------6--9----9h11-------------------------------------------------------------
D|--7----6--7--9--7--7----7---------------------------------------------------------------------------
A|----------------------------------------------------------------------------------------------------
E|----------------------------------------------------------------------------------------------------



E|--7--9--5--0------
B|------------------
G|------------------
D|------------------
A|------------------
E|------------------



E|-----------------------------------------------------------------------------------------------------------
B|--5--5--5--5--5--5--5--5--5--5--------------5-----5--5--5--5--5--5--5--5--5--5--5--5--5--------------5-----
G|--------------------------------6--6--6--7-----7-----------------------------------------6--6--6--7-----7--
D|-----------------------------------------------------------------------------------------------------------
A|-----------------------------------------------------------------------------------------------------------
E|-----------------------------------------------------------------------------------------------------------



E|--12--12--12--12--10--10--10--10--10--9---9---9---10--12--10--10--10--10--
B|--10--10--10--10--10--10--10--10--10--10--10--10--10--10--10--10--10--10--
G|--------------------------------------------------------------------------
D|--------------------------------------------------------------------------
A|--------------------------------------------------------------------------
E|--------------------------------------------------------------------------



E|--
B|--
G|--
D|--
A|--
E|--



E|--
B|--
G|--
D|--
A|--
E|--



E|-----------------------------------------------------------------------------------------
B|--10-----10-----10-----10-----10--10--9--10--10-----10-----10-----10-----10--10--12--10--
G|------9------9------9------9---------------------9------9------9------9------------------
D|-----------------------------------------------------------------------------------------
A|-----------------------------------------------------------------------------------------
E|-----------------------------------------------------------------------------------------
http://www.guitartabcreator.com
Guitar Tab Creator is intended to store guitar tab created through the tool. It currently does not support in-line text editing. Any text you place in here will be lost. If you need to comment on your tab, please use the "Tab Notes" section located below.