你是我永遠的救主 - Guitar Interlude

(/) Slide Up  (\) Slide Down  (h) Hammer On  (p) Pull Off  (b) Bend (r) Release (v) Vibrato


E|--7/9-------7h9--7-----------------------------------7-------------------7/9--9--9--9-----
B|-------7------------10--9------10--9h10p9--7--9--10-----9---------------------------------
G|-----------------------------------------------------------9--9---------------------------
D|------------------------------------------------------------------------------------------
A|------------------------------------------------------------------------------------------
E|------------------------------------------------------------------------------------------



E|--5/7--7--7--7--
B|----------------
G|----------------
D|----------------
A|----------------
E|----------------
http://www.guitartabcreator.com
Guitar Tab Creator is intended to store guitar tab created through the tool. It currently does not support in-line text editing. Any text you place in here will be lost. If you need to comment on your tab, please use the "Tab Notes" section located below.