Don't Stop to Watch the Wheels -- Doobie Brothers -- Just the main riff

(/) Slide Up  (\) Slide Down  (h) Hammer On  (p) Pull Off  (b) Bend (r) Release (v) Vibrato

E|-------5--------------------------------------------------------
B|--6/7-----6-----------------------------------------------------
G|-------------7--5-----0-----------------------------------------
D|-------------------7-----3--4-----------------0--3--5-----------
A|-------------------------------5--3--0-----3-----------1--3-----
E|----------------------------------------1-----------------------



E|-------5-------------------------------------------------------
B|--6/7-----6----------------------------------------------------
G|-------------7--5-----0----------------------------------------
D|-------------------7-----3--4-----------------0--3--5----------
A|-------------------------------5--3--0-----3-----------3--5----
E|----------------------------------------1----------------------
Guitar Tab Creator is intended to store guitar tab created through the tool. It currently does not support in-line text editing. Any text you place in here will be lost. If you need to comment on your tab, please use the "Tab Notes" section located below.