Hunger City tabbed in Standard tuning

(/) Slide Up  (\) Slide Down  (h) Hammer On  (p) Pull Off  (b) Bend (r) Release (v) Vibrato

E|--------------------------------------------------------------------------------------------------
B|--------------------------------------------------------------------------------------------------
G|--------------------------------------------------------------------------------------------------
D|--------------------------------------------------------------------------------------------------
A|--------3--3--5--5--7--7--------3--3--5--5--7--7--------3--3--5--5--7--7--------3--3--5--5--7--7--
E|--5--5--------------------5--5--------------------5--5--------------------5--5--------------------



E|----------------------------------------------------------------------------------------------------
B|----------------------------------------------------------------------------------------------------
G|----------------------------------------------------------------------------------------------------
D|----------------------------------------------------------------------------------------------------
A|-----7--3--3--5--5--7--7--------3--3--5--5--7--7-----7--3--3--5--5--7--7--10--10--8--8--7--7--------
E|--0--5--------------------5--5--------------------0--5----------------------------------------8--8--



E|--------------------------------------------------
B|--------------------------------------------------
G|--------------------------------------------------
D|--------------------------------------------------
A|--------------2--2--3--3--------------0--0--3--3--
E|--3--3--5--5--------------1--1--3--3--------------



E|--3----------------3--3--3----------------3--------------3--3--3---------------------
B|--3----------------3--3--3----------------3--------------3--3--3---------------------
G|--0----------------0--0--0----------------0--------------0--0--0---------------------
D|----------------------------10--9---------------------------------10--9--------------
A|----------------------------8---7--7------------------------------8---7--5--5--5--5--
E|-----------------------------------5-------------------------------------3--3--3--3--
http://www.guitartabcreator.com
Guitar Tab Creator is intended to store guitar tab created through the tool. It currently does not support in-line text editing. Any text you place in here will be lost. If you need to comment on your tab, please use the "Tab Notes" section located below.