Hunger City 1/2 step down played in standard tuning

(/) Slide Up  (\) Slide Down  (h) Hammer On  (p) Pull Off  (b) Bend (r) Release (v) Vibrato

E|--------------------------------------------------------------------------------------------------
B|--------------------------------------------------------------------------------------------------
G|--------------------------------------------------------------------------------------------------
D|--------------------------------------------------------------------------------------------------
A|--------2--2--4--4--6--6--------2--2--4--4--6--6--------2--2--4--4--6--6--------2--2--4--4--6--6--
E|--4--4--------------------4--4--------------------4--4--------------------4--4--------------------



E|--------------------------------------------------------------------------------------------------
B|--------------------------------------------------------------------------------------------------
G|--------------------------------------------------------------------------------------------------
D|--------------------------------------------------------------------------------------------------
A|-----6--2--2--4--4--6--6--------2--2--4--4--6--6-----6--2--2--4--4--6--6--9--9--7--7--6--6--------
E|--0--4--------------------4--4--------------------0--4--------------------------------------7--7--



E|--------------------------------------------------
B|--------------------------------------------------
G|--------------------------------------------------
D|--------------------------------------------------
A|--------------1--1--2--2--------------------1--1--
E|--2--2--4--4--------------0--0--2--2--4--4--------



E|---------------------------------------------------------------------------------------
B|--7----------7--7--7-------------------------7------------7--7--7----------------------
G|--6----------6--6--6----9--8-----------------6------------6--6--6----9--8--------------
D|--4----------4--4--4----9--8-----------------4------------4--4--4----9--8--------------
A|------------------------7--6--6--------------------------------------7--6--4--4--4--4--
E|------------------------------4--------------------------------------------2--2--2--2--
http://www.guitartabcreator.com
Guitar Tab Creator is intended to store guitar tab created through the tool. It currently does not support in-line text editing. Any text you place in here will be lost. If you need to comment on your tab, please use the "Tab Notes" section located below.