Mona Lisa / Nat King Cole

(/) Slide Up  (\) Slide Down  (h) Hammer On  (p) Pull Off  (b) Bend (r) Release (v) Vibrato


E|-----------------------------------------------------------------------------------------
B|------------------------------------------8--7--7--5--5----------------------5--4--7--5--
G|--7--6--9--7--7--6--9--7---------------------------------7--7--4--5--7-------------------
D|----------------------------9--5----------------------------------------7----------------
A|----------------------------------7--5---------------------------------------------------
E|-----------------------------------------------------------------------------------------



E|-----------------------------------------------------------------------------------------
B|-----------------------------------------------------5--3--------------------------------
G|--5--4--7--5---------------------------0--2--4--5------------5--4----7--6--9--7----7--6--
D|----------------7--6--9--7----0--2--4----------------------------------------------------
A|-----------------------------------------------------------------------------------------
E|-----------------------------------------------------------------------------------------



E|----------------------------------------------------------------------------------------
B|------------------------8--7--7--5--5-----------------5----------4--4--6--8--6----4--4--
G|--9--7---------------------------------7--7--4--5--7-----5--7---------------------------
D|----------9--5--------------------------------------------------------------------------
A|----------------7--5--------------------------------------------------------------------
E|----------------------------------------------------------------------------------------



E|---------------------------------------------------------------------------------
B|--3--5----4--4-----5--3--3-------------------------------------------------------
G|----------------------------4-----------------------5--7--4--2----5--7--4--2--0--
D|----------------4----------------------------------------------------------------
A|-----------------------------------------5--7--5---------------------------------
E|---------------------------------------------------------------------------------
http://www.guitartabcreator.com
Guitar Tab Creator is intended to store guitar tab created through the tool. It currently does not support in-line text editing. Any text you place in here will be lost. If you need to comment on your tab, please use the "Tab Notes" section located below.