Amazing Grace Melody Line ( One Octave Higher, Key of G )

(/) Slide Up  (\) Slide Down  (h) Hammer On  (p) Pull Off  (b) Bend (r) Release (v) Vibrato

E|--------7--5--7--5-----------------7--5-----5/10--
B|-----8--------------8-----------8--------8--------
G|--7--------------------9--7--7--------------------
D|--------------------------------------------------
A|--------------------------------------------------
E|--------------------------------------------------



E|--7--10--7--10--7--------------------------7--5-----7--5-----
B|-------------------8--------8-----------8--------8--------8--
G|----------------------7--9-----9--7--7-----------------------
D|-------------------------------------------------------------
A|-------------------------------------------------------------
E|-------------------------------------------------------------
http://www.guitartabcreator.com
Guitar Tab Creator is intended to store guitar tab created through the tool. It currently does not support in-line text editing. Any text you place in here will be lost. If you need to comment on your tab, please use the "Tab Notes" section located below.