Introduction composition #2

(/) Slide Up  (\) Slide Down  (h) Hammer On  (p) Pull Off  (b) Bend (r) Release (v) Vibrato


E|-----------------------|--------------------
B|-----5-----4--5-----7--|--5-----4--5-----5--
G|--------4--------4-----|-----4--------------
D|-----------------------|--------------6-----
A|--4--------------------|--------------------
E|-----------------------|--------------------



E|-----------------------|--------------------
B|-----5-----4--5-----7--|--5-----4--5-----5--
G|--------4--------4-----|-----4--------------
D|-----------------------|--------------6-----
A|--0--------------------|--------------------
E|-----------------------|--------------------



E|-----------------------|--------------------
B|-----5-----4--5-----7--|--5-----4--5-----5--
G|--------4--------4-----|-----4--------------
D|-----------------------|--------------6-----
A|-----------------------|--------------------
E|--0--------------------|--------------------



E|--------------0-----------|--------------------------
B|--------4-----------4-----|-----------4--7--5--------
G|-----4-----4-----4-----4--|--------5-----------4-----
D|--------------------------|-----6-----------------6--
A|--2-----------------------|--3-----------------------
E|--------------------------|--------------------------
http://www.guitartabcreator.com
Guitar Tab Creator is intended to store guitar tab created through the tool. It currently does not support in-line text editing. Any text you place in here will be lost. If you need to comment on your tab, please use the "Tab Notes" section located below.