I Don't want (The Bums)

(/) Slide Up  (\) Slide Down  (h) Hammer On  (p) Pull Off  (b) Bend (r) Release (v) Vibrato

E|----------------------------------------------------------------------------------------------
B|----------------------------------------------------------------------------------------------
G|----------------------------------------------------------------------------------------------
D|----------------------------------------------------------------------------------------------
A|--0--0-----0----0-----0----0-----0--5--5--3b4----0--0-----0----0-----0----0-----0--5--5--3b4--
E|--------3----------3----------3------------------------3----------3----------3----------------



E|----------------------------------------------------------------------------------------
B|----------------------------------------------------------------------------------------
G|----------------------------------------------------------------------------------------
D|----------2-----------------------------------------------------------------------------
A|-------------5--3--5----5--5--3--5--5--3b4--0--0--0--3--4----------2--2--3--3--4--5-----
E|--1----1---------------------------------------------------3----3--------------------1--



E|----------------------------------------------------------------------------------------
B|----------------------------------------------------------------------------------------
G|----------------------------------------------------------------------------------------
D|----------2-----------------------------------------------------------------------------
A|-------------5--3--5----5--5--3--5--5--3b4--0--0--0--3--4----------2--2--3--3--4--5-----
E|--1----1---------------------------------------------------3----3--------------------1--



E|------------------------------------------------------------------------------------------
B|------------------------------------------------------------------------------------------
G|------------------------------------------------------------------------------------------
D|----------2------------------------------------------2------------------------------------
A|-------------5--3--5----5--5--3--5--5--3b4--0--0--0-----5--3----------2--2--3--3--5--3/5--
E|--1----1------------------------------------------------------3----3----------------------



E|-----------------------------------------------------------------
B|-----------------------------------------------------------------
G|-----------------------------------------------------------------
D|--------------------------------------------------------------7--
A|--5--5----3--5--5----5-------------------------------------------
E|------------------------2----3----4----5----5--5--5--5--5--5-----



E|------------------------------------------------------------------------------------------------
B|------------------------------------------------------------------------------------------------
G|------------------------------------------------------------------------------------------------
D|------------------------------------------------------------------------------------------------
A|--0----0----0--0------------------5----5----5--5--3b4--0----0----0--0------------------5--5-----
E|------------------3----3----3--3---------------------------------------3----3--3--3-------------



E|--------------------------------------------------------------------------------------------
B|--------------------------------------------------------------------------------------------
G|--------------------------------------------------------------------------------------------
D|--------------------------------------------------------------------------------------------
A|--0--0----0--3--4----------2--2--3--3--4--4--5----5--5--3--5--5----5--3--5--5b6--5--3b4--0--
E|-------------------3----3-------------------------------------------------------------------
http://www.guitartabcreator.com

Line 1- Riff intro. Line

Line 1- Riff intro.
Line 2,3,4, 5 -Pré ref.
Line 5- 1+2 /4 mes. Ref
Line 6- 3+4 /4 mes. Ref

Guitar Tab Creator is intended to store guitar tab created through the tool. It currently does not support in-line text editing. Any text you place in here will be lost. If you need to comment on your tab, please use the "Tab Notes" section located below.