breakin

(/) Slide Up  (\) Slide Down  (h) Hammer On  (p) Pull Off  (b) Bend (r) Release (v) Vibrato


E|--2--3h3p3h3p5h5p3h3p3h3p3h3p-----
B|-----------------------------5h---
G|----------------------------------
D|----------------------------------
A|----------------------------------
E|----------------------------------



E|--------------------------------------------------------------------------
B|--7--7--5--7--7--5--7--5--9--9--7--9--9--7--9--7--7--7--5--7--7--5--7--5--
G|--------------------------------------------------------------------------
D|--------------------------------------------------------------------------
A|--------------------------------------------------------------------------
E|--------------------------------------------------------------------------



E|--7--5---------------------------------------------------------------------------------------
B|--------7--5----------------10--10--12b10------10----------12b10------10------10-------------
G|--------------8--9--11--11-----------------11------11--11---------11------11------11--11-----
D|---------------------------------------------------------------------------------------------
A|---------------------------------------------------------------------------------------------
E|---------------------------------------------------------------------------------------------
http://www.guitartabcreator.com
Guitar Tab Creator is intended to store guitar tab created through the tool. It currently does not support in-line text editing. Any text you place in here will be lost. If you need to comment on your tab, please use the "Tab Notes" section located below.