Rudolph The Red Nosed Reigndeer

(/) Slide Up  (\) Slide Down  (h) Hammer On  (p) Pull Off  (b) Bend (r) Release (v) Vibrato

E|----------------------------------------------------
B|--------------------------------------------1--0----
G|--0--2--0-----5--2--0--------0--2--0--2--0----------
D|-----------2----------------------------------------
A|----------------------------------------------------
E|----------------------------------------------------



E|----------------------------------------------------
B|----------------------------------------------------
G|-----0--------4--2--0--------0--2--0--2--0--2-------
D|--3-----3--0-----------------------------------2----
A|----------------------------------------------------
E|----------------------------------------------------



E|--------------------------------------------------
B|--------------------------------------------1--0--
G|--0--2--0-----5--2--0--------0--2--0--2--0--------
D|-----------2--------------------------------------
A|--------------------------------------------------
E|--------------------------------------------------



E|----------------------------------------------------
B|--------------------------------------------3--1----
G|-----0--------4--2--0--------0--2--0--2--0----------
D|--3-----3--0----------------------------------------
A|----------------------------------------------------
E|----------------------------------------------------



E|--------------------------------------------------
B|--------1-----------------------------------------
G|--2--2-----2--0-----0-----------2--0--------------
D|-----------------2-----------3--------3--2--------
A|--------------------------------------------------
E|--------------------------------------------------



E|--------------------------------------------------
B|--------------------------------------------------
G|--------0--2--4--4--4--------5--5--4--2--0--------
D|--0--2--------------------------------------3--0--
A|--------------------------------------------------
E|--------------------------------------------------



E|----------------------------------------------------
B|--------------------------------------------1--0----
G|--0--2--0-----5--2--0--------0--2--0--2--0----------
D|-----------2----------------------------------------
A|----------------------------------------------------
E|----------------------------------------------------



E|----------------------------------------------------
B|--------------------------------------------3--1----
G|-----0--------4--2--0--------0--2--0--2--0----------
D|--3-----3--0----------------------------------------
A|----------------------------------------------------
E|----------------------------------------------------
http://www.guitartabcreator.com
Guitar Tab Creator is intended to store guitar tab created through the tool. It currently does not support in-line text editing. Any text you place in here will be lost. If you need to comment on your tab, please use the "Tab Notes" section located below.