between angels and insects papa roach intro

(/) Slide Up  (\) Slide Down  (h) Hammer On  (p) Pull Off  (b) Bend (r) Release (v) Vibrato


E|-----------------------------------------------------------------------------------------------
B|-----------------------------------------------------------------------------------------------
G|-----------------------------------------------------------------------------------------------
D|-----------------------------------------------------------------------------------------------
A|-----8-----7-----10-----8--7h8-----8-----7-----10-----8--7h8-----8-----7-----10-----8--7h8-----
E|--0-----0-----0------0----------8-----8-----8------8----------7-----7-----7------7-------------



E|---------------------------------------------------------------------------------------------------
B|---------------------------------------------------------------------------------------------------
G|---------------------------------------------------------------------------------------------------
D|---------------------------------------------------------------------------------------------------
A|------8------7------10------8--7h8-----8-----7-----10-----8--7h8-----8-----7-----10-----8--7h8-----
E|--10-----10-----10------10----------0-----0-----0------0----------8-----8-----8------8-------------



E|------------------------------------------------------------------
B|------------------------------------------------------------------
G|------------------------------------------------------------------
D|------------------------------------------------------------------
A|-----8-----7-----10-----8--7h8------8------7------10------8--7h8--
E|--7-----7-----7------7----------10-----10-----10------10----------
http://www.guitartabcreator.com
Guitar Tab Creator is intended to store guitar tab created through the tool. It currently does not support in-line text editing. Any text you place in here will be lost. If you need to comment on your tab, please use the "Tab Notes" section located below.