viking METALLLLLLLLl!!!!!!!!!!(UN-FINISHED)

(/) Slide Up  (\) Slide Down  (h) Hammer On  (p) Pull Off  (b) Bend (r) Release (v) Vibrato


E|--------------------------------------------------------------------
B|--------------------------------------------------------------------
G|--------------------------------------------------------------------
D|--------------------------------------------------------------------
A|--------------------------------------------------5--5--5--9--9--9--
E|--0--0--0--3h0h2--0--0--0--3h0h2--0--0--0--3h0h2--------------------



E|-----------------------------------------------------------------------
B|-----------------------------------------------------------------------
G|-----------------------------------------------------------------------
D|-----------------------------------------------------------------------
A|--------------------------------------------------9--9--9--12--12--12--
E|--0--0--0--3h0h2--0--0--0--3h0h2--0--0--0--3h0h2-----------------------



E|--------------------------------------------------------------------
B|--------------------------------------------------------------------
G|--------------------------------------------------------------------
D|--------------------------------------------------------------------
A|--------------------------------------------------5--5--5--9--9--9--
E|--0--0--0--3h0h2--0--0--0--3h0h2--0--0--0--3h0h2--------------------



E|---------------------------------------------------
B|---------------------------------------------------
G|---------------------------------------------------
D|------------------------------------2--------------
A|------------------------------------2--7h8h7--5/7--
E|--0--0--0--3h0h2--0--0--0--3--2--0--0--------------



E|---------------------------------------------------------------------------
B|---------------------------------------------------------------------------
G|---------------------------------------------------------------------------
D|---------------------------------------------------------------------------
A|-----------7-----8-----------7-----8-----------7-----8--10--8--7--8--7--5--
E|--0--0--0-----0-----0--0--0-----0-----0--0--0-----0------------------------



E|----------------------------------------------------
B|----------------------------------------------------
G|----------------------------------------------------
D|----------------------------------------------------
A|-----------7-----8-----------7-----8--5--3h5--2--3--
E|--0--0--0-----0-----0--0--0-----0-------------------



E|---------------------------------------------------------------------------
B|---------------------------------------------------------------------------
G|---------------------------------------------------------------------------
D|---------------------------------------------------------------------------
A|-----------7-----8-----------7-----8-----------7-----8--10--8--7--8--7--5--
E|--0--0--0-----0-----0--0--0-----0-----0--0--0-----0------------------------
http://www.guitartabcreator.com
Guitar Tab Creator is intended to store guitar tab created through the tool. It currently does not support in-line text editing. Any text you place in here will be lost. If you need to comment on your tab, please use the "Tab Notes" section located below.