michael jackson-billie jean

(/) Slide Up  (\) Slide Down  (h) Hammer On  (p) Pull Off  (b) Bend (r) Release (v) Vibrato

E|-----------------------------------
B|-----------------------------------
G|-----------------------------------
D|---2-----------2-------------------
A|-------2---5-------5---2-------2---
E|---------------------------5-------



E|---2---4---5---4---
B|---2---4---5---4---
G|---2---4---5---4---
D|-------------------
A|-------------------
E|-------------------
http://www.guitartabcreator.com
Guitar Tab Creator is intended to store guitar tab created through the tool. It currently does not support in-line text editing. Any text you place in here will be lost. If you need to comment on your tab, please use the "Tab Notes" section located below.