Tie your mother down

(/) Slide Up  (\) Slide Down  (h) Hammer On  (p) Pull Off  (b) Bend (r) Release (v) Vibrato


E|------------------------------2--3--------------------------------------------------------
B|------------------------------3--3--3--3--------------------------------------------------
G|--2--2-------2--2--2-------2-----0--0--0----------9--9------9----------------9--9------9--
D|--2--2----------2--2-------------0-----0--11--11--9--9--11--9-----9--11--11--9--9--11--9--
A|--0-----3p0-----0-----3p0--------0--3--3--7---7---7--7--7---7-----7--7---7---7--7--7---7--
E|---------------------------------3--------0---0---0--0--0---0--0--0--0---0---0--0--0---0--



E|------------------------------------------------------------------------------------
B|--------------------------------12--12--12--12--0-----------------------------------
G|----------------9--9------9-----12--12--12--12--------------------------------------
D|-----9--11--11--9--9--11--9-----12--12--12--12--2-----------7-----9-----7-----9-----
A|-----7--7---7---7--7--7---7-----10--10--10--10--0--2--3--4--5--5--5--5--5--5--5--5--
E|--0--0--0---0---0--0--0---0--0------------------------------------------------------



E|-----------------------------2--0--------3--3-----------0--
B|-----------------------------2--2--2--2--3--3-----2-----2--
G|-----------------------------2--2--2--2--0--0-----2-----2--
D|--7-----9-----7-----9-----2--2--2--2--2--0--0-----2-----2--
A|--5--5--5--5--5--5--5--0--0--------0--0--------0-----0-----
E|-----------------------------------------------------------
http://www.guitartabcreator.com
Guitar Tab Creator is intended to store guitar tab created through the tool. It currently does not support in-line text editing. Any text you place in here will be lost. If you need to comment on your tab, please use the "Tab Notes" section located below.