Lingling

(/) Slide Up  (\) Slide Down  (h) Hammer On  (p) Pull Off  (b) Bend (r) Release (v) Vibrato


E|--17----------14--------------------------19-------------
B|------------------18------16-----------------------------
G|--------------------------------------17------15--14-----
D|----------17----------14---------------------------------
A|------------------------------17--16---------------------
E|------16-------------------------------------------------



E|--17----------14--------------------------19----------
B|------------------18------16--------------------------
G|--------------------------------------17------15--14--
D|----------17----------14------------------------------
A|------------------------------17--16------------------
E|------16----------------------------------------------
http://www.guitartabcreator.com
Guitar Tab Creator is intended to store guitar tab created through the tool. It currently does not support in-line text editing. Any text you place in here will be lost. If you need to comment on your tab, please use the "Tab Notes" section located below.