Heathcliff

(/) Slide Up  (\) Slide Down  (h) Hammer On  (p) Pull Off  (b) Bend (r) Release (v) Vibrato


E|--17--14--------------------------17--14--------------------------
B|----------17--14--17--14------------------17--14--17--14----------
G|--------------------------16--14--------------------------16--14--
D|------------------------------------------------------------------
A|------------------------------------------------------------------
E|------------------------------------------------------------------



E|--17--14----------16--13----------15--12----------14--11----------
B|----------17--14----------16--13----------15--12----------14--11--
G|------------------------------------------------------------------
D|------------------------------------------------------------------
A|------------------------------------------------------------------
E|------------------------------------------------------------------



E|--17--14--------------------------17--14-------------------------
B|----------17--14--17--14------------------17--14--17--14---------
G|--------------------------16--14--------------------------16--14h
D|-----------------------------------------------------------------
A|-----------------------------------------------------------------
E|-----------------------------------------------------------------



E|--13--
B|--13--
G|------
D|------
A|------
E|------
http://www.guitartabcreator.com
Guitar Tab Creator is intended to store guitar tab created through the tool. It currently does not support in-line text editing. Any text you place in here will be lost. If you need to comment on your tab, please use the "Tab Notes" section located below.