Chocolateface

(/) Slide Up  (\) Slide Down  (h) Hammer On  (p) Pull Off  (b) Bend (r) Release (v) Vibrato


E|-------------------------------------------------------------
B|---------15h17---------15h17---------15h17---------15h17-----
G|--14h16---------14h16---------14h16---------14h16------------
D|-------------------------------------------------------------
A|-------------------------------------------------------------
E|-------------------------------------------------------------



E|----------------15h19----------------15h19----------------15h19----------------15h19--
B|---------15h17----------------15h17----------------15h17----------------15h17---------
G|--14h16----------------14h16----------------14h16----------------14h16----------------
D|--------------------------------------------------------------------------------------
A|--------------------------------------------------------------------------------------
E|--------------------------------------------------------------------------------------



E|---------------------------------------------------------
B|---------15h17---------16h18---------17h19---------18h20h
G|--14h16---------15h17---------16h18---------17h19--------
D|---------------------------------------------------------
A|---------------------------------------------------------
E|---------------------------------------------------------
http://www.guitartabcreator.com
Guitar Tab Creator is intended to store guitar tab created through the tool. It currently does not support in-line text editing. Any text you place in here will be lost. If you need to comment on your tab, please use the "Tab Notes" section located below.