Metalcore-ish Section No.1

(/) Slide Up  (\) Slide Down  (h) Hammer On  (p) Pull Off  (b) Bend (r) Release (v) Vibrato


E|--------------------------------------------------------
B|--------------------------------------------------------
G|--------------------------------------------------------
D|--0-----------------------8------8--10--10------10--12--
A|--0--8--7--5--4--5--------8--10---------10--12----------
E|--0-----------------8--7--8-------------10--------------



E|--------------------------------------------------------
B|--------------------------------------------------------
G|--------------------------------------------------------
D|--0-----------------------8------8--10--10------10--12--
A|--0--8--7--5--4--5--------8--10---------10--12----------
E|--0-----------------5--7--8-------------10--------------



E|--------------------------------------------------------
B|--------------------------------------------------------
G|--------------------------------------------------------
D|--0-----------------------8------8--10--10------10--12--
A|--0--8--7--5--4--5--------8--10---------10--12----------
E|--0-----------------8--7--8-------------10--------------



E|--------------------------------------------------------
B|--------------------------------------------------------
G|--------------------------------------------------------
D|--0-----------------------8------8--10--10------10--12--
A|--0--8--7--5--4--5--------8--10---------10--12----------
E|--0-----------------5--7--8-------------10--------------



E|--------------------------------------------------------------
B|--------------------------------------------------------------
G|--------------------------------------------------------------
D|--------------------------------------------------------------
A|--------------------------------------------------------------
E|--0--10--12--0--10--12--0--10--12--0--10--12--13--12--13--15--



E|--------------------------------------------------------------
B|--------------------------------------------------------------
G|--------------------------------------------------------------
D|--------------------------------------------------------------
A|----------------------------------------------------------12--
E|--0--10--12--0--10--12--0--10--12--0--10--12--13--12--13------



E|--------------------------------------------------------------
B|--------------------------------------------------------------
G|--------------------------------------------------------------
D|--------------------------------------------------------------
A|--------------------------------------------------------------
E|--0--10--12--0--10--12--0--10--12--0--10--12--13--12--13--15--



E|----------------------------------------------------------
B|----------------------------------------------------------
G|----------------------------------------------------------
D|--8--8--8--8--8--8--8--8--10--10--10--10--10--10--10--10--
A|--8--8--8--8--8--8--8--8--10--10--10--10--10--10--10--10--
E|--8--8--8--8--8--8--8--8--10--10--10--10--10--10--10--10--



E|--------------------------------------------------------------
B|--------------------------------------------------------------
G|--------------------------------------------------------------
D|--------------------------------------------------------------
A|--------------------------------------------------------------
E|--0--10--12--0--10--12--0--10--12--0--10--12--13--12--13--15--



E|--------------------------------------------------------------
B|--------------------------------------------------------------
G|--------------------------------------------------------------
D|--------------------------------------------------------------
A|----------------------------------------------------------12--
E|--0--10--12--0--10--12--0--10--12--0--10--12--13--12--13------



E|--------------------------------------------------------------
B|--------------------------------------------------------------
G|--------------------------------------------------------------
D|--------------------------------------------------------------
A|--------------------------------------------------------------
E|--0--10--12--0--10--12--0--10--12--0--10--12--13--12--13--15--



E|----------------------------------------------------------
B|----------------------------------------------------------
G|----------------------------------------------------------
D|--8--8--8--8--8--8--8--8--10--10--10--10--10--10--10--10--
A|--8--8--8--8--8--8--8--8--10--10--10--10--10--10--10--10--
E|--8--8--8--8--8--8--8--8--10--10--10--10--10--10--10--10--



E|------------------------------------------------------------------------------
B|------------------------------------------------------------------------------
G|------------------------------------------------------------------------------
D|------------------------------------------------------------------------------
A|------------------------------------------------------------------------------
E|-0--0-0-0-0--0-0-0--0-0-0--0--0-0-0-0--0-0-0--0-0-0--0--0-0-0-0--0-0-0--0-0-0-



E|---------------------------------
B|---------------------------------
G|---------------------------------
D|---------------------------------
A|---------------------------------
E|-8--8-8-8-8--8h10-10--10-10-10---



E|----------------------------------------------------
B|----------------------------------------------------
G|----------------------------------------------------
D|----------------------------------------------------
A|----------------------------------------------------
E|-0--0-0-0-0--0-0-0--0-0-0--0--0-0-0-0--0-0-0--0-0-0-



E|---------------------------------------------------------------
B|---------------------------------------------------------------
G|---------------------------------------------------------------
D|---------------------------------------------------------------
A|---------------------------------------------------------------
E|-8--8-8-8-8--8-8-8--8-8-8--10--10-10-10-10--10-10-10--10-10-10-
http://www.guitartabcreator.com
Guitar Tab Creator is intended to store guitar tab created through the tool. It currently does not support in-line text editing. Any text you place in here will be lost. If you need to comment on your tab, please use the "Tab Notes" section located below.