Metal Song - Lead - Intro

(/) Slide Up  (\) Slide Down  (h) Hammer On  (p) Pull Off  (b) Bend (r) Release (v) Vibrato

Stave 1:

E|-----------------------------|-------------------------------
B|-----------------------------|-------------------------------
G|-----------------------------|-------------------------------
D|-----------------------------|-------------------------------
A|-----8-----7-----5-3/5-5-2/3-|-----8-----7-----5-3/5-5-2/3---
E|-0-0---0-0---0-0-------------|-0-0---0-0---0-0---------------

Stave 2:

E|-----------------------------|-------------------------------
B|-----------------------------|-------------------------------
G|-----------------------------|-------------------------------
D|-----------------------------|---------------7-5-----5-------
A|-----8-----7-----5-3/5-5-2/3-|-0-0-8-0-0-7-0-----8-7---8-7-5-
E|-5-5---5-5---5-5-------------|-------------------------------

http://www.guitartabcreator.com
Guitar Tab Creator is intended to store guitar tab created through the tool. It currently does not support in-line text editing. Any text you place in here will be lost. If you need to comment on your tab, please use the "Tab Notes" section located below.