"Creed - Higher" Inspired Metal Riff

(/) Slide Up  (\) Slide Down  (h) Hammer On  (p) Pull Off  (b) Bend (r) Release (v) Vibrato


E|---------------------------------------------------------------------------
B|---------------------------------------------------------------------------
G|---7---7---7---9---9---9---11---11---11---12---12---12---11---11---9---9---
D|---0---0---0---0---0---0---0----0----0----0----0----0----0----0----0---0---
A|---5---5---5---7---7---7---9----9----9----10---10---10---9----9----7---7---
E|---0---0---0---0---0---0---0----0----0----0----0----0----0----0----0---0---



E|----------------------------------------------------------------------
B|----------------------------------------------------------------------
G|---5---5---5---7---7---7---9---9---9---10---10---10---9---9---7---7---
D|---0---0---0---0---0---0---0---0---0---0----0----0----0---0---0---0---
A|---3---3---3---5---5---5---7---7---7---8----8----8----7---7---5---5---
E|---0---0---0---0---0---0---0---0---0---0----0----0----0---0---0---0---
http://www.guitartabcreator.com
Guitar Tab Creator is intended to store guitar tab created through the tool. It currently does not support in-line text editing. Any text you place in here will be lost. If you need to comment on your tab, please use the "Tab Notes" section located below.