Basic Metal Riff Ideas

(/) Slide Up  (\) Slide Down  (h) Hammer On  (p) Pull Off  (b) Bend (r) Release (v) Vibrato
E|-----------------------------------------------------
B|-----------------------------------------------------
G|-----------------------------------------------------
D|-----------------------------------------------------
A|--------5--------------------------------------------
E|--0--0-----0--6--0--3--0--5--6--5--3--5--3--2--1--0--



E|-------------------------------------------
B|-------------------------------------------
G|-------------------------------------------
D|-------------------------------------------
A|--------5-----------------3----------------
E|--0--0-----0--7--6--5--3-----5--4--3b4--0--



E|------------------------------------------------------------------------------------------------
B|------------------------------------------------------------------------------------------------
G|------------------------------------------------------------------------------------------------
D|--------------------------8--7--5---------------------------------------------------------------
A|--------5-----8--7--5--------------8--7--5--3-------------5--3----------------3--1--------------
E|--0--0-----0-----------0-----------------------5--3--3----------5--3--1--1----------3--1--0--0--



E|-----------------------------------------------------------------------------------------
B|-----------------------------------------------------------------------------------------
G|-----------------------------------------------------------------------------------------
D|--------------------------------------------------------------0--------------------------
A|-----------------------------------------------------------------3--1--0--3--1--0--------
E|--0----0--0--0--1--3--0----0--0--0--1--3--0----0--0--0--1--3-----------------------3--0--
http://www.guitartabcreator.com
Guitar Tab Creator is intended to store guitar tab created through the tool. It currently does not support in-line text editing. Any text you place in here will be lost. If you need to comment on your tab, please use the "Tab Notes" section located below.