empire

(/) Slide Up  (\) Slide Down  (h) Hammer On  (p) Pull Off  (b) Bend (r) Release (v) Vibrato


E|--------------------------------------------------------
B|--------------------------------------------------------
G|--------------------------------------------------------
D|--------------------------------6-----6--9--5-----5--8--
A|--0----3----2----1----0----3-------7-----------6--------
E|--0----3----2----1----0----3----------------------------



E|--------------------------------------------------------------------------------------------------
B|--------------------------------------------------------------------------------------------------
G|--------------------------------------------------------------------------------------------------
D|--------------------------------------------------------------------------6-----6--9--5-----5--8--
A|-----5-----5-----8-----8-----7-----7-----6-----6-----5-----5-----8-----8-----7-----------6--------
E|--0-----0-----0-----0-----0-----0-----0-----0-----0-----0-----0-----0-----------------------------



E|--------------------------------------------------------------------------------------------------
B|--------------------------------------------------------------------------------------------------
G|--------------------------------------------------------------------------------------------------
D|--------------------------------------------------------------------------------------------------
A|--------------------------------------------------------------------------------------------------
E|--0--0--0--0--0--0--0--0--3--3--3--3--3--3--3--3--2--2--2--2--2--2--2--2--1--1--1--1--1--1--1--1--



E|--------------------------------------------------------------------------
B|--------------------------------------------------------------------------
G|--------------------------------------------------------------------------
D|--------------------------------------------------6-----6--9--5-----5--8--
A|-----------------------------------------------------7-----------6--------
E|--0--0--0--0--0--0--0--0--3--3--3--3--3--3--3--3--------------------------



E|-------------------------------------------------------------------------------
B|-------------------------------------------------------------------------------
G|-------------------------------------------------------------------------------
D|-------------------------------------------------------------------------------
A|-------------------------------------------------------------------1-----------
E|--0--0--0--0----0--0--0--0----0--0----0--0--0--0----0--0--1--4--4-----4--1--4--



E|--------------------------------------------------------------------
B|--------------------------------------------------------------------
G|--------------------------------------------------------------------
D|--------------------------------------------------------------------
A|-----------------------------------------------------------1--------
E|--0--0--0--0--0--0--0--0--0--0--0--0--0--0--0--0--0--1--4-----4--1--



E|-----------------------------------------------------
B|-----------------------------------------------------
G|-----------------------------------------------------
D|-----------------------------------------------------
A|--1--1--1--1--1--1--1--1--0--0--0--0--0--0--0--0--0--
E|--------------------------------------------------0--
http://www.guitartabcreator.com
Guitar Tab Creator is intended to store guitar tab created through the tool. It currently does not support in-line text editing. Any text you place in here will be lost. If you need to comment on your tab, please use the "Tab Notes" section located below.